ISO-10303-21;
HEADER;
FILE_DESCRIPTION (( 'STEP AP214' ),
    '1' );
FILE_NAME ('LEDVANCE_Surface_Compact_IK10.STEP',
    '2022-01-28T06:53:32',
    ( '' ),
    ( '' ),
    'SwSTEP 2.0',
    'SolidWorks 2020',
    '' );
FILE_SCHEMA (( 'AUTOMOTIVE_DESIGN' ));
ENDSEC;

DATA;
#1 = CARTESIAN_POINT ( 'NONE',  ( 300.0000000000020464, -150.0000000000087539, 41.03059505532513640 ) ) ;
#2 = PLANE ( 'NONE',  #108 ) ;
#3 = UNCERTAINTY_MEASURE_WITH_UNIT (LENGTH_MEASURE( 1.000000000000000082E-05 ), #89, 'distance_accuracy_value', 'NONE');
#4 = ADVANCED_FACE ( 'NONE', ( #134, #189 ), #186, .T. ) ;
#5 = CARTESIAN_POINT ( 'NONE',  ( -9.601749438342519483, -73.15402055397640879, 61.00000000000000000 ) ) ;
#6 = CLOSED_SHELL ( 'NONE', ( #22, #72, #4, #117 ) ) ;
#7 = CARTESIAN_POINT ( 'NONE',  ( 5.842211054390610274E-12, -150.0000000000074749, 41.03059505532205264 ) ) ;
#8 = UNCERTAINTY_MEASURE_WITH_UNIT (LENGTH_MEASURE( 1.000000000000000082E-05 ), #30, 'distance_accuracy_value', 'NONE');
#9 = CARTESIAN_POINT ( 'NONE',  ( 6.890604205929003382E-12, -150.0000000000086686, -1.439641347052321778E-11 ) ) ;
#10 = ORIENTED_EDGE ( 'NONE', *, *, #57, .T. ) ;
#11 = STYLED_ITEM ( 'NONE', ( #54 ), #138 ) ;
#12 = VERTEX_POINT ( 'NONE', #155 ) ;
#13 =( BOUNDED_CURVE ( )  B_SPLINE_CURVE ( 3, ( #23, #143, #129, #125 ),
 .UNSPECIFIED., .F., .F. ) 
 B_SPLINE_CURVE_WITH_KNOTS ( ( 4, 4 ),
 ( 0.0000000000000000000, 1.000000000000000000 ),
 .UNSPECIFIED. ) 
 CURVE ( )  GEOMETRIC_REPRESENTATION_ITEM ( )  RATIONAL_B_SPLINE_CURVE ( ( 1.000000000000000000, 0.3333333333333327597, 0.3333333333333327597, 1.000000000000000000 ) ) 
 REPRESENTATION_ITEM ( '' )  );
#14 = STYLED_ITEM ( 'NONE', ( #167 ), #44 ) ;
#15 = CARTESIAN_POINT ( 'NONE',  ( -143.0628681907860198, -71.53143409540430753, 60.99999999999850786 ) ) ;
#16 = CARTESIAN_POINT ( 'NONE',  ( -143.0628681907847977, 71.53143409538736819, 61.00000000000095923 ) ) ;
#17 = DIRECTION ( 'NONE',  ( -1.027528214424256061E-14, -1.705847661839964900E-14, 1.000000000000000000 ) ) ;
#18 = DIRECTION ( 'NONE',  ( -1.027528214424256061E-14, 1.705847661839964900E-14, -1.000000000000000000 ) ) ;
#19 = CARTESIAN_POINT ( 'NONE',  ( 7.147486259534972038E-12, 149.9999999999888871, 35.99999999999072742 ) ) ;
#20 = CARTESIAN_POINT ( 'NONE',  ( 6.263811995130090958E-12, -73.05791157058030194, 61.00000000000000000 ) ) ;
#21 = B_SPLINE_CURVE_WITH_KNOTS ( 'NONE', 3,
 ( #20, #5, #193, #107, #113, #179, #161, #27, #43, #114, #41 ),
 .UNSPECIFIED., .F., .F.,
 ( 4, 1, 1, 1, 1, 1, 1, 1, 4 ),
 ( 0.0000000000000000000, 0.1250000000000000000, 0.2500000000000000000, 0.3750000000000000000, 0.5000000000000000000, 0.6250000000000000000, 0.7500000000000000000, 0.8750000000000000000, 1.000000000000000000 ),
 .UNSPECIFIED. ) ;
#22 = ADVANCED_FACE ( 'NONE', ( #168 ), #170, .T. ) ;
#23 = CARTESIAN_POINT ( 'NONE',  ( 6.520694048736270449E-12, -150.0000000000089813, 35.99999999998560440 ) ) ;
#24 = CARTESIAN_POINT ( 'NONE',  ( 300.0000000000034674, 149.9999999999876366, 35.99999999999381117 ) ) ;
#25 = PRODUCT_DEFINITION_SHAPE ( 'NONE', 'NONE',  #163 ) ;
#26 = MECHANICAL_DESIGN_GEOMETRIC_PRESENTATION_REPRESENTATION (  '', ( #14 ), #135 ) ;
#27 = CARTESIAN_POINT ( 'NONE',  ( -53.00963006048420567, 53.01654757231119675, 61.00000000000289901 ) ) ;
#28 = SURFACE_SIDE_STYLE ('',( #151 ) ) ;
#29 = VERTEX_POINT ( 'NONE', #49 ) ;
#30 =( LENGTH_UNIT ( ) NAMED_UNIT ( * ) SI_UNIT ( .MILLI., .METRE. ) );
#31 = SURFACE_STYLE_FILL_AREA ( #204 ) ;
#32 = CARTESIAN_POINT ( 'NONE',  ( 5.637019784331440260E-12, -71.53143409540555808, 60.99999999999998579 ) ) ;
#33 = CARTESIAN_POINT ( 'NONE',  ( 6.890604205929030039E-12, -8.681874905206862085E-12, -1.183539932725352014E-11 ) ) ;
#34 = CARTESIAN_POINT ( 'NONE',  ( 144.0805198409150876, 72.04025992044311977, 61.00000000000392220 ) ) ;
#35 = CARTESIAN_POINT ( 'NONE',  ( -299.9999999999891429, 149.9999999999899956, 41.03059505532409901 ) ) ;
#36 = CARTESIAN_POINT ( 'NONE',  ( 5.842211054390610274E-12, -150.0000000000074749, 41.03059505532205264 ) ) ;
#37 = FACE_OUTER_BOUND ( 'NONE', #131, .T. ) ;
#38 = DIRECTION ( 'NONE',  ( -1.752806602050215051E-28, -1.000000000000000000, -1.705847661839964900E-14 ) ) ;
#39 = CARTESIAN_POINT ( 'NONE',  ( 5.738126778511640662E-12, -144.4966941611519928, 51.16017343748850266 ) ) ;
#40 = AXIS2_PLACEMENT_3D ( 'NONE', #130, #146, #99 ) ;
#41 = CARTESIAN_POINT ( 'NONE',  ( 6.027755369815690658E-12, 73.05791157056090412, 61.00000000000279954 ) ) ;
#42 = APPLICATION_PROTOCOL_DEFINITION ( 'draft international standard', 'automotive_design', 1998, #94 ) ;
#43 = CARTESIAN_POINT ( 'NONE',  ( -28.66744569984919977, 69.20933620717509882, 61.00000000000299849 ) ) ;
#44 = MANIFOLD_SOLID_BREP ( 'Imported2', #6 ) ;
#45 = CARTESIAN_POINT ( 'NONE',  ( 74.96061625413759089, -9.378856025143991234E-12, 61.00000000000079581 ) ) ;
#46 = CARTESIAN_POINT ( 'NONE',  ( 53.00963006049680359, -53.01654757233050219, 61.00000000000000000 ) ) ;
#47 = CARTESIAN_POINT ( 'NONE',  ( 145.0981714910315645, 72.54908574550137246, 61.00000000000396483 ) ) ;
#48 = CARTESIAN_POINT ( 'NONE',  ( 5.637019784331440260E-12, -72.54908574552206346, 60.99999999999999289 ) ) ;
#49 = CARTESIAN_POINT ( 'NONE',  ( 6.169257439361571224E-12, 149.9999999999901945, 35.99999999999075584 ) ) ;
#50 = CARTESIAN_POINT ( 'NONE',  ( 5.637019784331420065E-12, -134.9639917708574046, 61.00000000000069633 ) ) ;
#51 = CARTESIAN_POINT ( 'NONE',  ( 7.095795475987964177E-12, 149.9999999999887166, 41.03059505532717566 ) ) ;
#52 = CARTESIAN_POINT ( 'NONE',  ( 145.0981714910303140, -72.54908574552331402, 61.00000000000149214 ) ) ;
#53 = CARTESIAN_POINT ( 'NONE',  ( 6.263811995130120847E-12, -9.722441978929430875E-12, 61.00000000000000000 ) ) ;
#54 = PRESENTATION_STYLE_ASSIGNMENT (( #181 ) ) ;
#55 = ORIENTED_EDGE ( 'NONE', *, *, #203, .T. ) ;
#56 =( NAMED_UNIT ( * ) SI_UNIT ( $, .STERADIAN. ) SOLID_ANGLE_UNIT ( ) );
#57 = EDGE_CURVE ( 'NONE', #197, #12, #110, .T. ) ;
#58 = FACE_OUTER_BOUND ( 'NONE', #166, .T. ) ;
#59 = COLOUR_RGB ( '',0.7921568627450980005, 0.8196078431372548767, 0.9333333333333333481 ) ;
#60 = CARTESIAN_POINT ( 'NONE',  ( 9.601749438355511757, -73.15402055397629510, 61.00000000000000000 ) ) ;
#61 = CARTESIAN_POINT ( 'NONE',  ( 144.0805198409138086, -72.04025992046506133, 61.00000000000147082 ) ) ;
#62 = CARTESIAN_POINT ( 'NONE',  ( -299.9999999999903935, -150.0000000000062244, 41.03059505531897599 ) ) ;
#63 = AXIS2_PLACEMENT_3D ( 'NONE', #33, #78, #136 ) ;
#64 = CARTESIAN_POINT ( 'NONE',  ( -299.9999999999891998, 149.9999999999901661, 35.99999999998765077 ) ) ;
#65 = APPLICATION_CONTEXT ( 'automotive_design' ) ;
#66 = CARTESIAN_POINT ( 'NONE',  ( 6.169257439361571224E-12, 149.9999999999901945, 35.99999999999075584 ) ) ;
#67 = CARTESIAN_POINT ( 'NONE',  ( 146.1158231411480699, 73.05791157055961094, 61.00000000000398614 ) ) ;
#68 = AXIS2_PLACEMENT_3D ( 'NONE', #76, #17, #90 ) ;
#69 = CARTESIAN_POINT ( 'NONE',  ( -146.1158231411343138, 73.05791157056209784, 61.00000000000098765 ) ) ;
#70 =( BOUNDED_SURFACE ( )  B_SPLINE_SURFACE ( 3, 3, ( 
 ( #105, #15, #16, #104, #169, #121, #32 ),
 ( #188, #91, #77, #137, #34, #61, #120 ),
 ( #48, #106, #187, #171, #47, #52, #85 ),
 ( #157, #95, #69, #128, #67, #174, #159 ),
 ( #50, #80, #96, #191, #173, #141, #177 ),
 ( #158, #160, #194, #83, #97, #145, #39 ),
 ( #7, #62, #35, #51, #190, #1, #36 ),
 ( #111, #176, #64, #19, #24, #98, #109 ) ),
 .UNSPECIFIED., .F., .T., .T. ) 
 B_SPLINE_SURFACE_WITH_KNOTS ( ( 4, 3, 1, 4 ),
 ( 4, 3, 4 ),
 ( -0.0007832285309230104875, 0.0000000000000000000, 0.09529117010700929868, 0.1283825533101026206 ),
 ( 0.0000000000000000000, 0.5000000000000000000, 1.000000000000000000 ),
 .UNSPECIFIED. ) 
 GEOMETRIC_REPRESENTATION_ITEM ( )  RATIONAL_B_SPLINE_SURFACE ( (
 ( 1.000000000000000000, 0.3333333333333333148, 0.3333333333333333148, 1.000000000000000000, 0.3333333333333333148, 0.3333333333333333148, 1.000000000000000000),
 ( 1.000000000000000000, 0.3333333333333333148, 0.3333333333333333148, 1.000000000000000000, 0.3333333333333333148, 0.3333333333333333148, 1.000000000000000000),
 ( 1.000000000000000000, 0.3333333333333333148, 0.3333333333333333148, 1.000000000000000000, 0.3333333333333333148, 0.3333333333333333148, 1.000000000000000000),
 ( 1.000000000000000000, 0.3333333333333333148, 0.3333333333333333148, 1.000000000000000000, 0.3333333333333333148, 0.3333333333333333148, 1.000000000000000000),
 ( 1.000000000000000000, 0.3333333333333333148, 0.3333333333333333148, 1.000000000000000000, 0.3333333333333333148, 0.3333333333333333148, 1.000000000000000000),
 ( 1.000000000000000000, 0.3333333333333333148, 0.3333333333333333148, 1.000000000000000000, 0.3333333333333333148, 0.3333333333333333148, 1.000000000000000000),
 ( 1.000000000000000000, 0.3333333333333333148, 0.3333333333333333148, 1.000000000000000000, 0.3333333333333333148, 0.3333333333333333148, 1.000000000000000000),
 ( 1.000000000000000000, 0.3333333333333333148, 0.3333333333333333148, 1.000000000000000000, 0.3333333333333333148, 0.3333333333333333148, 1.000000000000000000) ) ) 
 REPRESENTATION_ITEM ( '' )  SURFACE ( )  );
#71 = ORIENTED_EDGE ( 'NONE', *, *, #149, .F. ) ;
#72 = ADVANCED_FACE ( 'NONE', ( #93, #58 ), #70, .F. ) ;
#73 = ORIENTED_EDGE ( 'NONE', *, *, #156, .T. ) ;
#74 = SHAPE_DEFINITION_REPRESENTATION ( #25, #138 ) ;
#75 = SURFACE_SIDE_STYLE ('',( #31 ) ) ;
#76 = CARTESIAN_POINT ( 'NONE',  ( 7.059283805533850777E-12, -8.003064877470929870E-12, -40.00000000001185185 ) ) ;
#77 = CARTESIAN_POINT ( 'NONE',  ( -144.0805198409013030, 72.04025992044562088, 61.00000000000096634 ) ) ;
#78 = DIRECTION ( 'NONE',  ( -1.027528214424256061E-14, 1.705847661839964900E-14, -1.000000000000000000 ) ) ;
#79 = CARTESIAN_POINT ( 'NONE',  ( 28.66744569986130031, 69.20933620717529777, 61.00000000000240163 ) ) ;
#80 = CARTESIAN_POINT ( 'NONE',  ( -269.9279835416896844, -134.9639917708561541, 60.99999999999793232 ) ) ;
#81 = PRODUCT_DEFINITION_FORMATION_WITH_SPECIFIED_SOURCE ( 'ANY', '', #198, .NOT_KNOWN. ) ;
#82 = CARTESIAN_POINT ( 'NONE',  ( 6.648272519764140338E-12, -8.685403942206922217E-12, -1.183764197776326263E-11 ) ) ;
#83 = CARTESIAN_POINT ( 'NONE',  ( 6.991711200108975178E-12, 144.4966941611328650, 51.16017343749342672 ) ) ;
#84 = CARTESIAN_POINT ( 'NONE',  ( 6.520694048736270449E-12, -150.0000000000089813, 35.99999999998560440 ) ) ;
#85 = CARTESIAN_POINT ( 'NONE',  ( 5.637019784331440260E-12, -72.54908574552206346, 60.99999999999999289 ) ) ;
#86 = FILL_AREA_STYLE_COLOUR ( '', #59 ) ;
#87 = ORIENTED_EDGE ( 'NONE', *, *, #92, .T. ) ;
#88 = APPLICATION_PROTOCOL_DEFINITION ( 'draft international standard', 'automotive_design', 1998, #65 ) ;
#89 =( LENGTH_UNIT ( ) NAMED_UNIT ( * ) SI_UNIT ( .MILLI., .METRE. ) );
#90 = DIRECTION ( 'NONE',  ( 1.615544574432417323E-15, -1.000000000000000000, -1.706967900361178181E-14 ) ) ;
#91 = CARTESIAN_POINT ( 'NONE',  ( -144.0805198409025252, -72.04025992046257443, 60.99999999999850786 ) ) ;
#92 = EDGE_CURVE ( 'NONE', #147, #147, #152, .T. ) ;
#93 = FACE_OUTER_BOUND ( 'NONE', #183, .T. ) ;
#94 = APPLICATION_CONTEXT ( 'automotive_design' ) ;
#95 = CARTESIAN_POINT ( 'NONE',  ( -146.1158231411355359, -73.05791157057906560, 60.99999999999849365 ) ) ;
#96 = CARTESIAN_POINT ( 'NONE',  ( -269.9279835416884907, 134.9639917708391863, 61.00000000000252243 ) ) ;
#97 = CARTESIAN_POINT ( 'NONE',  ( 288.9933883222918780, 144.4966941611316145, 51.16017343749640389 ) ) ;
#98 = CARTESIAN_POINT ( 'NONE',  ( 300.0000000000022737, -150.0000000000087539, 35.99999999998868816 ) ) ;
#99 = DIRECTION ( 'NONE',  ( 1.000000000000000000, 0.0000000000000000000, 0.0000000000000000000 ) ) ;
#100 = PRESENTATION_LAYER_ASSIGNMENT (  '', '', ( #14 ) ) ;
#101 = ORIENTED_EDGE ( 'NONE', *, *, #156, .F. ) ;
#102 = ORIENTED_EDGE ( 'NONE', *, *, #92, .F. ) ;
#103 = CARTESIAN_POINT ( 'NONE',  ( 28.66744569986200020, -69.20933620719439716, 61.00000000000000000 ) ) ;
#104 = CARTESIAN_POINT ( 'NONE',  ( 6.890604205928765890E-12, 71.53143409538611763, 61.00000000000243006 ) ) ;
#105 = CARTESIAN_POINT ( 'NONE',  ( 5.637019784331440260E-12, -71.53143409540555808, 60.99999999999998579 ) ) ;
#106 = CARTESIAN_POINT ( 'NONE',  ( -145.0981714910190590, -72.54908574552081291, 60.99999999999849365 ) ) ;
#107 = CARTESIAN_POINT ( 'NONE',  ( -53.00963006048399961, -53.01654757233089299, 61.00000000000110134 ) ) ;
#108 = AXIS2_PLACEMENT_3D ( 'NONE', #53, #18, #38 ) ;
#109 = CARTESIAN_POINT ( 'NONE',  ( 5.893901837937630252E-12, -150.0000000000074749, 35.99999999998560440 ) ) ;
#110 = B_SPLINE_CURVE_WITH_KNOTS ( 'NONE', 3,
 ( #154, #206, #79, #140, #122, #45, #200, #46, #103, #60, #153 ),
 .UNSPECIFIED., .F., .F.,
 ( 4, 1, 1, 1, 1, 1, 1, 1, 4 ),
 ( 0.0000000000000000000, 0.1250000000000000000, 0.2500000000000000000, 0.3750000000000000000, 0.5000000000000000000, 0.6250000000000000000, 0.7500000000000000000, 0.8750000000000000000, 1.000000000000000000 ),
 .UNSPECIFIED. ) ;
#111 = CARTESIAN_POINT ( 'NONE',  ( 5.893901837937630252E-12, -150.0000000000074749, 35.99999999998560440 ) ) ;
#112 = CARTESIAN_POINT ( 'NONE',  ( 6.027755369815690658E-12, 73.05791157056090412, 61.00000000000279954 ) ) ;
#113 = CARTESIAN_POINT ( 'NONE',  ( -69.25250220344290142, -28.68294164880625274, 61.00000000000169820 ) ) ;
#114 = CARTESIAN_POINT ( 'NONE',  ( -9.601749438342769949, 73.15402055395689729, 61.00000000000289901 ) ) ;
#115 = EDGE_LOOP ( 'NONE', ( #71, #101 ) ) ;
#116 = ORIENTED_EDGE ( 'NONE', *, *, #149, .T. ) ;
#117 = ADVANCED_FACE ( 'NONE', ( #37 ), #2, .F. ) ;
#118 = EDGE_LOOP ( 'NONE', ( #102 ) ) ;
#119 =( NAMED_UNIT ( * ) PLANE_ANGLE_UNIT ( ) SI_UNIT ( $, .RADIAN. ) );
#120 = CARTESIAN_POINT ( 'NONE',  ( 5.637019784331440260E-12, -72.04025992046381077, 60.99999999999998579 ) ) ;
#121 = CARTESIAN_POINT ( 'NONE',  ( 143.0628681907972748, -71.53143409540679443, 61.00000000000145661 ) ) ;
#122 = CARTESIAN_POINT ( 'NONE',  ( 69.25250220345530749, 28.68294164878705033, 61.00000000000129319 ) ) ;
#123 = CARTESIAN_POINT ( 'NONE',  ( 6.520694048736270449E-12, -150.0000000000089813, 35.99999999998560440 ) ) ;
#124 = AXIS2_PLACEMENT_3D ( 'NONE', #82, #144, #142 ) ;
#125 = CARTESIAN_POINT ( 'NONE',  ( 6.169257439361571224E-12, 149.9999999999901945, 35.99999999999075584 ) ) ;
#126 = CARTESIAN_POINT ( 'NONE',  ( -299.9999999999888018, -150.0000000000075886, 35.99999999998252775 ) ) ;
#127 = UNCERTAINTY_MEASURE_WITH_UNIT (LENGTH_MEASURE( 1.000000000000000082E-05 ), #132, 'distance_accuracy_value', 'NONE');
#128 = CARTESIAN_POINT ( 'NONE',  ( 6.890604205928765083E-12, 73.05791157056086149, 61.00000000000248690 ) ) ;
#129 = CARTESIAN_POINT ( 'NONE',  ( 300.0000000000028990, 149.9999999999900808, 35.99999999999381117 ) ) ;
#130 = CARTESIAN_POINT ( 'NONE',  ( 0.0000000000000000000, 0.0000000000000000000, 0.0000000000000000000 ) ) ;
#131 = EDGE_LOOP ( 'NONE', ( #164, #148 ) ) ;
#132 =( LENGTH_UNIT ( ) NAMED_UNIT ( * ) SI_UNIT ( .MILLI., .METRE. ) );
#133 = PRODUCT_RELATED_PRODUCT_CATEGORY ( 'part', '', ( #198 ) ) ;
#134 = FACE_OUTER_BOUND ( 'NONE', #118, .T. ) ;
#135 =( GEOMETRIC_REPRESENTATION_CONTEXT ( 3 ) GLOBAL_UNCERTAINTY_ASSIGNED_CONTEXT ( ( #8 ) ) GLOBAL_UNIT_ASSIGNED_CONTEXT ( ( #30, #119, #201 ) ) REPRESENTATION_CONTEXT ( 'NONE', 'WORKASPACE' ) );
#136 = DIRECTION ( 'NONE',  ( -1.752806602050215051E-28, -1.000000000000000000, -1.705847661839964900E-14 ) ) ;
#137 = CARTESIAN_POINT ( 'NONE',  ( 6.890604205928765890E-12, 72.04025992044437032, 61.00000000000244427 ) ) ;
#138 = ADVANCED_BREP_SHAPE_REPRESENTATION ( 'LEDVANCE_Surface_Compact_IK10', ( #44, #40 ), #182 ) ;
#139 = FILL_AREA_STYLE_COLOUR ( '', #172 ) ;
#140 = CARTESIAN_POINT ( 'NONE',  ( 53.00963006049639858, 53.01654757231159465, 61.00000000000189715 ) ) ;
#141 = CARTESIAN_POINT ( 'NONE',  ( 269.9279835417009963, -134.9639917708586836, 61.00000000000346034 ) ) ;
#142 = DIRECTION ( 'NONE',  ( 1.615544574432417323E-15, -1.000000000000000000, -1.705847661839970264E-14 ) ) ;
#143 = CARTESIAN_POINT ( 'NONE',  ( 300.0000000000038085, -150.0000000000069065, 35.99999999998868816 ) ) ;
#144 = DIRECTION ( 'NONE',  ( -1.027528214424256061E-14, 1.705847661839964900E-14, -1.000000000000000000 ) ) ;
#145 = CARTESIAN_POINT ( 'NONE',  ( 288.9933883222905706, -144.4966941611532434, 51.16017343749146562 ) ) ;
#146 = DIRECTION ( 'NONE',  ( 0.0000000000000000000, 0.0000000000000000000, 1.000000000000000000 ) ) ;
#147 = VERTEX_POINT ( 'NONE', #9 ) ;
#148 = ORIENTED_EDGE ( 'NONE', *, *, #57, .F. ) ;
#149 = EDGE_CURVE ( 'NONE', #185, #29, #13, .T. ) ;
#150 = PRODUCT_CONTEXT ( 'NONE', #65, 'mechanical' ) ;
#151 = SURFACE_STYLE_FILL_AREA ( #162 ) ;
#152 = CIRCLE ( 'NONE', #124, 150.0000000000000000 ) ;
#153 = CARTESIAN_POINT ( 'NONE',  ( 6.263811995130090958E-12, -73.05791157058030194, 61.00000000000000000 ) ) ;
#154 = CARTESIAN_POINT ( 'NONE',  ( 6.027755369815690658E-12, 73.05791157056090412, 61.00000000000279954 ) ) ;
#155 = CARTESIAN_POINT ( 'NONE',  ( 6.263811995130090958E-12, -73.05791157058030194, 61.00000000000000000 ) ) ;
#156 = EDGE_CURVE ( 'NONE', #29, #185, #196, .T. ) ;
#157 = CARTESIAN_POINT ( 'NONE',  ( 5.637019784331440260E-12, -73.05791157058030194, 61.00000000000000000 ) ) ;
#158 = CARTESIAN_POINT ( 'NONE',  ( 5.738126778511640662E-12, -144.4966941611519928, 51.16017343748850266 ) ) ;
#159 = CARTESIAN_POINT ( 'NONE',  ( 5.637019784331440260E-12, -73.05791157058030194, 61.00000000000000000 ) ) ;
#160 = CARTESIAN_POINT ( 'NONE',  ( -288.9933883222792019, -144.4966941611507423, 51.16017343748553259 ) ) ;
#161 = CARTESIAN_POINT ( 'NONE',  ( -69.25250220344290142, 28.68294164878659913, 61.00000000000270006 ) ) ;
#162 = FILL_AREA_STYLE ('',( #86 ) ) ;
#163 = PRODUCT_DEFINITION ( 'UNKNOWN', '', #81, #178 ) ;
#164 = ORIENTED_EDGE ( 'NONE', *, *, #203, .F. ) ;
#165 =( NAMED_UNIT ( * ) PLANE_ANGLE_UNIT ( ) SI_UNIT ( $, .RADIAN. ) );
#166 = EDGE_LOOP ( 'NONE', ( #73, #116 ) ) ;
#167 = PRESENTATION_STYLE_ASSIGNMENT (( #205 ) ) ;
#168 = FACE_OUTER_BOUND ( 'NONE', #199, .T. ) ;
#169 = CARTESIAN_POINT ( 'NONE',  ( 143.0628681907985822, 71.53143409538486708, 61.00000000000390088 ) ) ;
#170 = PLANE ( 'NONE',  #63 ) ;
#171 = CARTESIAN_POINT ( 'NONE',  ( 6.890604205928765890E-12, 72.54908574550262301, 61.00000000000246558 ) ) ;
#172 = COLOUR_RGB ( '',0.7921568627450980005, 0.8196078431372548767, 0.9333333333333333481 ) ;
#173 = CARTESIAN_POINT ( 'NONE',  ( 269.9279835417021900, 134.9639917708366852, 61.00000000000808598 ) ) ;
#174 = CARTESIAN_POINT ( 'NONE',  ( 146.1158231411467909, -73.05791157058155250, 61.00000000000149925 ) ) ;
#175 = PRESENTATION_LAYER_ASSIGNMENT (  '', '', ( #11 ) ) ;
#176 = CARTESIAN_POINT ( 'NONE',  ( -299.9999999999905071, -150.0000000000062244, 35.99999999998252775 ) ) ;
#177 = CARTESIAN_POINT ( 'NONE',  ( 5.637019784331420065E-12, -134.9639917708574046, 61.00000000000069633 ) ) ;
#178 = PRODUCT_DEFINITION_CONTEXT ( 'detailed design', #94, 'design' ) ;
#179 = CARTESIAN_POINT ( 'NONE',  ( -74.96061625412508533, -9.835690595316750971E-12, 61.00000000000229505 ) ) ;
#180 =( GEOMETRIC_REPRESENTATION_CONTEXT ( 3 ) GLOBAL_UNCERTAINTY_ASSIGNED_CONTEXT ( ( #3 ) ) GLOBAL_UNIT_ASSIGNED_CONTEXT ( ( #89, #184, #56 ) ) REPRESENTATION_CONTEXT ( 'NONE', 'WORKASPACE' ) );
#181 = SURFACE_STYLE_USAGE ( .BOTH. , #28 ) ;
#182 =( GEOMETRIC_REPRESENTATION_CONTEXT ( 3 ) GLOBAL_UNCERTAINTY_ASSIGNED_CONTEXT ( ( #127 ) ) GLOBAL_UNIT_ASSIGNED_CONTEXT ( ( #132, #165, #195 ) ) REPRESENTATION_CONTEXT ( 'NONE', 'WORKASPACE' ) );
#183 = EDGE_LOOP ( 'NONE', ( #10, #55 ) ) ;
#184 =( NAMED_UNIT ( * ) PLANE_ANGLE_UNIT ( ) SI_UNIT ( $, .RADIAN. ) );
#185 = VERTEX_POINT ( 'NONE', #123 ) ;
#186 = CYLINDRICAL_SURFACE ( 'NONE', #68, 150.0000000000000000 ) ;
#187 = CARTESIAN_POINT ( 'NONE',  ( -145.0981714910178084, 72.54908574550385936, 61.00000000000096634 ) ) ;
#188 = CARTESIAN_POINT ( 'NONE',  ( 5.637019784331440260E-12, -72.04025992046381077, 60.99999999999998579 ) ) ;
#189 = FACE_OUTER_BOUND ( 'NONE', #115, .T. ) ;
#190 = CARTESIAN_POINT ( 'NONE',  ( 300.0000000000033538, 149.9999999999874660, 41.03059505533025941 ) ) ;
#191 = CARTESIAN_POINT ( 'NONE',  ( 6.890604205928748927E-12, 134.9639917708379642, 61.00000000000530775 ) ) ;
#192 = CARTESIAN_POINT ( 'NONE',  ( -299.9999999999893703, 149.9999999999877218, 35.99999999998764366 ) ) ;
#193 = CARTESIAN_POINT ( 'NONE',  ( -28.66744569984900082, -69.20933620719469559, 61.00000000000000000 ) ) ;
#194 = CARTESIAN_POINT ( 'NONE',  ( -288.9933883222778945, 144.4966941611341156, 51.16017343749044244 ) ) ;
#195 =( NAMED_UNIT ( * ) SI_UNIT ( $, .STERADIAN. ) SOLID_ANGLE_UNIT ( ) );
#196 =( BOUNDED_CURVE ( )  B_SPLINE_CURVE ( 3, ( #66, #192, #126, #84 ),
 .UNSPECIFIED., .F., .T. ) 
 B_SPLINE_CURVE_WITH_KNOTS ( ( 4, 4 ),
 ( 0.0000000000000000000, 1.000000000000000000 ),
 .UNSPECIFIED. ) 
 CURVE ( )  GEOMETRIC_REPRESENTATION_ITEM ( )  RATIONAL_B_SPLINE_CURVE ( ( 1.000000000000000000, 0.3333333333333345916, 0.3333333333333345916, 1.000000000000000000 ) ) 
 REPRESENTATION_ITEM ( '' )  );
#197 = VERTEX_POINT ( 'NONE', #112 ) ;
#198 = PRODUCT ( 'LEDVANCE_Surface_Compact_IK10', 'LEDVANCE_Surface_Compact_IK10', '', ( #150 ) ) ;
#199 = EDGE_LOOP ( 'NONE', ( #87 ) ) ;
#200 = CARTESIAN_POINT ( 'NONE',  ( 69.25250220345549224, -28.68294164880585129, 61.00000000000000000 ) ) ;
#201 =( NAMED_UNIT ( * ) SI_UNIT ( $, .STERADIAN. ) SOLID_ANGLE_UNIT ( ) );
#202 = MECHANICAL_DESIGN_GEOMETRIC_PRESENTATION_REPRESENTATION (  '', ( #11 ), #180 ) ;
#203 = EDGE_CURVE ( 'NONE', #12, #197, #21, .T. ) ;
#204 = FILL_AREA_STYLE ('',( #139 ) ) ;
#205 = SURFACE_STYLE_USAGE ( .BOTH. , #75 ) ;
#206 = CARTESIAN_POINT ( 'NONE',  ( 9.601749438354810096, 73.15402055395701097, 61.00000000000260059 ) ) ;
ENDSEC;
END-ISO-10303-21;
